Jonas Brothers Oficial Street Team Portuguesa
Bem-vindo!
Junta-te a nós ou faz o teu login!



 
InícioPortalFAQRegistrar-seLogin

Compartilhe | 
 

 as tabs dos jonas, para quem quiser aprender a tocar as suas musicas

Ver o tópico anterior Ver o tópico seguinte Ir em baixo 
AutorMensagem
André
world war III
world war III


Masculino Número de Mensagens : 33
Idade : 20
Localização : Lisboa
Emprego/lazer : estudante
Jonas Brothers Preferido : nenhum em especial, acho algumas musicas fixes...
Data de inscrição : 06/11/2009

MensagemAssunto: as tabs dos jonas, para quem quiser aprender a tocar as suas musicas   Sab Nov 07, 2009 7:02 pm

1.) Sos
Intro
e|------------------------------------------|
B|------------------------------------------|
G|-----------------5--5--3b-----------------|
D|-----5----5-------------------------------|
A|------------2/3---------------------------|
E|---3----3---------------------------------|
(intro)

Verse
e|------------------------------------------|
B|------------------------------------------|
G|-----------------5--5--3b-----------------|
D|-----5----5-------------------------------|
A|------------2/3---------------------------|
E|---3----3---------------------------------|
(first verse)
(Told you I made dinner plans...)

e|------------------------------------------|
B|------------------------------------------|
G|-----------------5--5--3h4-or-3/4---------|
D|-----5----5-------------------------------|
A|------------2/3---------------------------|
E|---3----3---------------------------------|
(You and me and no one else...)


e|------------------------------------------|
B|------------------------------------------|
G|-----------------5--5--3b-----------------|
D|-----5----5-------------------------------|
A|------------2/3---------------------------|
E|---3----3---------------------------------|
(That don't include your crazy friends)


e|----------------------------------------------|
B|----------------------------------------------|
G|------------------7----7----------------------|
D|-----2----2-------------------7----7----------|
A|--------------4/5---5-------------------------|
E|---0----0-----------------4/5----5-----4/5----|
(Well I'm done...)
(With awkward situations empty, conversations)

~CHORUS~
STRUM (Ooo! This is an SOS, don't wanna second guess)
e|-----------------------------------------------------|
B|-----------------------------------------------------|
G|--9------------5---------------------------7---------|
D|--9------------5--------------5------------7---------|
A|--7------------3--------------5------------5---------|
E|------------------------------3----------------------|x2

(And I can't find the other half)
e|-----------------------------------------------------|
B|-----------------------------------------------------|
G|---------------5-------------------------------------|
D|--7------------5--------------5------------7---------|
A|--7------------3--------------5------------7---------|
E|--5---------------------------3------------5---------|

(It's a call I'll never get)
Go back to Intro and Verse.
e|-----------------|
B|-----------------|
G|------------5----|
D|--7---------5----|
A|--7---------3----|
E|--5--------------|


Bridge
Play this part after you do the Intro and Verse a third time.
(Next time I see you, I'm giving you a high five)
e|-------------------------------------------------------|
B|-------------------------------------------------------|
G|--------------------------7----------------------------|
D|----------5---------------7----------------7-----------|
A|----------5---------------5----------------7-----------|
E|----------3--------------------------------5-----------|


(Cause hugs are over rated, just FYI)
e|-------------|
B|-------------|
G|--5-------7--|
D|--5-------7--|
A|--3-------5--|
E|-------------|

After the techno part, go back to the ~CHORUS~.

2.) Hold On

Verse 1
e|-------------------------------|
B|-------------------------------|
G|--44---------------------------| x4
D|--44--44--2222222222222222-----|
A|--22--44--2222222222222222-----|
E|------22--0000000000000000-----|

~CHORUS~
e|-------------------------------|
B|-------------------------------|
G|--4----------------------------|
D|--4 16x-4------6------2--------|
A|--2-----4 x16--6 x16--2 x16----|
E|--------2------4------0--------|


Verse 2
e|-----------------------------|
B|-----------------------------|
G|--44-------------------------| x4
D|--44--44--2222222222222222---|
A|--22--44--2222222222222222---|
E|------22--0000000000000000---|

~CHORUS~
e|-----------------------------|
B|-----------------------------|
G|--4--------------------------| x2
D|--4 16x-4------6------2------|
A|--2-----4 x16--6 x16--2 x16--|
E|--------2------4------0------|

e|--------------------------------|
B|--------------------------------|
G|--44----------------------------|
D|--44--44--2222222222222222------|
A|--22--44--2222222222222222------|
E|------22--0000000000000000------|

After Bridge:
e|---------------------------|
B|---------------------------|
G|---------------------------|
D|-66--66--22--22------------|
A|-66--66--22--22------------|
E|-44--44--00--00------------|

~CHORUS~
e|----------------------------|
B|----------------------------|
G|--4-------------------------| x3
D|--4 16x-4------6------2-----|
A|--2-----4 x16--6 x16--2 x16-|
E|--------2------4------0-----|

Outro
|-------------------------|
|-------------------------|
|---44--------------------|
|---44---66--66--22-------|
|---22---66--66--22-------|
|--------44--44--00-------|

------------------------------------------------------------------------



ouvi dizer que me pediram a burnin up

e|--7-7--7-7--7-7--10-10--10-10--10-10--|
B|--7-7--7-7--7-7--10-10--10-10--10-10--|
G|--7-7--7-7--7-7--11-11--11-11--11-11--|
D|--------------------------------------|
A|--------------------------------------|
E|--------------------------------------|
A G
e|--9--9---9--9---9--9---7-7--7-7--7-7--|
B|--10-10--10-10--10-10--8-8--8-8--8-8--|
G|--9--9---9--9---9--9---7-7--7-7--7-7--|
D|--------------------------------------|
A|--------------------------------------|
E|--------------------------------------|


Verse 1:
Bm D A G
e|-------------------------------------------|
B|-------------------------------------------|
G|--4---4-4---7---7-7------------------------| This is played
D|--4---4-4---7---7-7---7---7-7---5---5-5----| in the verse
A|--2---2-2---5---5-5---7---7-7---5---5-5----|
E|----------------------5---5-5---3---3-3----|


(Verse 1)
Bm
I'm hot
D
You're cold
A
You go around
G
Like you know
Bm
Who I am
D
But you don't
A G
You've got me, on my toes

(Chorus)
Bm D
I'm slipping into the lava
A G
And I'm trying to keep from going under
Baby
Bm D
You turn the temperature hotter
A
Cause I'm burning up
G
Burning up
For you baby

Interlude:
Bm D A G
e|-------------------------------------------|
B|-------------------------------------------|
G|--4---4-4---7---7-7------------------------|
D|--4---4-4---7---7-7---7---7-7---5---5-5----|
A|--2---2-2---5---5-5---7---7-7---5---5-5----|
E|----------------------5---5-5---3---3-3----|

Come On Girl

(Verse 2)
Bm
I fell(I fell)
D
So fast(so fast)
A
can't hold
G
Myself, back
Bm
High heels(high heels)
D
Red dress(red dress)
A
All by yourself
G
Gotta catch my breath


(Chorus)
Bm D
I'm slipping into the lava
A G
And I'm trying to keep from going under
Baby
Bm D
You turn the temperature hotter
A
Cause I'm burning up
G
Burning up
For you baby

(Bridge)

e|-------------------------------------------------|
B|-------------------------------------------------|
G|-------------------------------------------------|
D|---5--5-5--7--7-7--9--7--5---5--5-5--7--7-7--9---|
A|---5--5-5--7--7-7--9--7--5---5--5-5--7--7-7--9---|
E|---3--3-3--5--5-5--7--5--3---3--3-3--5--5-5--7---|


(Bridge)
G A
I walk in the room
Bm A G
All I can see is you
G A
You're staring me down
Bm C
I know you feel it too

(Chorus)
Bm D
I'm slipping into the lava
A G
And I'm trying to keep from going under
Baby
Bm D
You turn the temperature hotter
A
Cause I'm burning up
G
Burning up
For you baby

XSame Chords For the rest of the songX

I'm slipping into the lava
And I'm trying keep from going under
Baby
You turn the temperature hotter
Cause I'm burning up
Burning up
For you baby
(Bridge)
We're burning up In this place tonight
You brothers sing it loud(and we're feeling right)
Get up and dance don't try to fight
Big Rob for real (and that's no lie)
stop drop and roll (and touch the floor)
(To keep from burning up)
More and More
I got J.B with me(we're it laying down)
Come on boys
let's bring the chorus around

(Chrous)
I'm slipping into the lava (Burning Up, Burning Up)
And I'm trying keep from going under(Yeah)
Baby
You turn the temperature hotter (Come On)
I'm burning up
Burning up
for you baby
I'm burning up
Burning up
For you baby


The End!! I hope You liked it once again any ?'s
or comments give me an e-mail at ls9a9m2@yahoo.com.

Rock On!!


Última edição por André em Dom Nov 22, 2009 10:53 pm, editado 1 vez(es)
Voltar ao Topo Ir em baixo
Ver perfil do usuário
ritasantos
Jornalista
Jornalista


Feminino Número de Mensagens : 5905
Idade : 23
Localização : oasis
Emprego/lazer : profissional a descansar
Jonas Brothers Preferido : têm todos algo
Data de inscrição : 24/03/2009

MensagemAssunto: Re: as tabs dos jonas, para quem quiser aprender a tocar as suas musicas   Dom Nov 08, 2009 7:36 pm

eu sei as notas, o fudid* é o ritmo xDD
Voltar ao Topo Ir em baixo
Ver perfil do usuário
André
world war III
world war III


Masculino Número de Mensagens : 33
Idade : 20
Localização : Lisboa
Emprego/lazer : estudante
Jonas Brothers Preferido : nenhum em especial, acho algumas musicas fixes...
Data de inscrição : 06/11/2009

MensagemAssunto: Re: as tabs dos jonas, para quem quiser aprender a tocar as suas musicas   Dom Nov 08, 2009 7:38 pm

ritasantos escreveu:
eu sei as notas, o fudid* é o ritmo xDD
ah ok, mas sabes o ritmo? nao tens as musicas?
Voltar ao Topo Ir em baixo
Ver perfil do usuário
ritasantos
Jornalista
Jornalista


Feminino Número de Mensagens : 5905
Idade : 23
Localização : oasis
Emprego/lazer : profissional a descansar
Jonas Brothers Preferido : têm todos algo
Data de inscrição : 24/03/2009

MensagemAssunto: Re: as tabs dos jonas, para quem quiser aprender a tocar as suas musicas   Dom Nov 08, 2009 7:45 pm

André escreveu:
ritasantos escreveu:
eu sei as notas, o fudid* é o ritmo xDD
ah ok, mas sabes o ritmo? nao tens as musicas?

claro que tenho as musicas Very Happy
mas nao sei porqe nao consigo, nao fica igual :'\
Voltar ao Topo Ir em baixo
Ver perfil do usuário
André
world war III
world war III


Masculino Número de Mensagens : 33
Idade : 20
Localização : Lisboa
Emprego/lazer : estudante
Jonas Brothers Preferido : nenhum em especial, acho algumas musicas fixes...
Data de inscrição : 06/11/2009

MensagemAssunto: Re: as tabs dos jonas, para quem quiser aprender a tocar as suas musicas   Dom Nov 08, 2009 7:47 pm

ritasantos escreveu:
André escreveu:
ritasantos escreveu:
eu sei as notas, o fudid* é o ritmo xDD
ah ok, mas sabes o ritmo? nao tens as musicas?

claro que tenho as musicas Very Happy
mas nao sei porqe nao consigo, nao fica igual :'\

ah, mas tocas o que? electrica\classica\viola?
Voltar ao Topo Ir em baixo
Ver perfil do usuário
ritasantos
Jornalista
Jornalista


Feminino Número de Mensagens : 5905
Idade : 23
Localização : oasis
Emprego/lazer : profissional a descansar
Jonas Brothers Preferido : têm todos algo
Data de inscrição : 24/03/2009

MensagemAssunto: Re: as tabs dos jonas, para quem quiser aprender a tocar as suas musicas   Dom Nov 08, 2009 7:49 pm

viola xDD
consigo tocar, pizza girl, love is on its way ... e mais algumas mas coise Neutral
Voltar ao Topo Ir em baixo
Ver perfil do usuário
André
world war III
world war III


Masculino Número de Mensagens : 33
Idade : 20
Localização : Lisboa
Emprego/lazer : estudante
Jonas Brothers Preferido : nenhum em especial, acho algumas musicas fixes...
Data de inscrição : 06/11/2009

MensagemAssunto: Re: as tabs dos jonas, para quem quiser aprender a tocar as suas musicas   Dom Nov 08, 2009 7:52 pm

ritasantos escreveu:
viola xDD
consigo tocar, pizza girl, love is on its way ... e mais algumas mas coise Neutral

hum, entao so um conselho nao sei se dá resultadomas... comigo costuma dar
nao prestes atençao a letra da musica, presta ao ritmo e se conseguires ás palhetadas
Voltar ao Topo Ir em baixo
Ver perfil do usuário
ritasantos
Jornalista
Jornalista


Feminino Número de Mensagens : 5905
Idade : 23
Localização : oasis
Emprego/lazer : profissional a descansar
Jonas Brothers Preferido : têm todos algo
Data de inscrição : 24/03/2009

MensagemAssunto: Re: as tabs dos jonas, para quem quiser aprender a tocar as suas musicas   Dom Nov 08, 2009 7:54 pm

André escreveu:
ritasantos escreveu:
viola xDD
consigo tocar, pizza girl, love is on its way ... e mais algumas mas coise Neutral

hum, entao so um conselho nao sei se dá resultadomas... comigo costuma dar
nao prestes atençao a letra da musica, presta ao ritmo e se conseguires ás palhetadas

pois e o qe eu tento fazer. ate procuro no youtube tipo covers ou actuaçoes ao vivo dessa pessoa para vir como vao as maos, mas pronto e dificil mesmo ! Oo
Voltar ao Topo Ir em baixo
Ver perfil do usuário
André
world war III
world war III


Masculino Número de Mensagens : 33
Idade : 20
Localização : Lisboa
Emprego/lazer : estudante
Jonas Brothers Preferido : nenhum em especial, acho algumas musicas fixes...
Data de inscrição : 06/11/2009

MensagemAssunto: Re: as tabs dos jonas, para quem quiser aprender a tocar as suas musicas   Dom Nov 08, 2009 7:57 pm

ritasantos escreveu:
André escreveu:
ritasantos escreveu:
viola xDD
consigo tocar, pizza girl, love is on its way ... e mais algumas mas coise Neutral

hum, entao so um conselho nao sei se dá resultadomas... comigo costuma dar
nao prestes atençao a letra da musica, presta ao ritmo e se conseguires ás palhetadas

pois e o qe eu tento fazer. ate procuro no youtube tipo covers ou actuaçoes ao vivo dessa pessoa para vir como vao as maos, mas pronto e dificil mesmo ! Oo

pois looooooooool
Voltar ao Topo Ir em baixo
Ver perfil do usuário
ritasantos
Jornalista
Jornalista


Feminino Número de Mensagens : 5905
Idade : 23
Localização : oasis
Emprego/lazer : profissional a descansar
Jonas Brothers Preferido : têm todos algo
Data de inscrição : 24/03/2009

MensagemAssunto: Re: as tabs dos jonas, para quem quiser aprender a tocar as suas musicas   Dom Nov 08, 2009 7:59 pm

mas eu heide consegir ahah. obrigado Very Happy
continua a por tabs, ou entao mesmo chords, ha pessoas qe se entendem melhor Very Happy
Voltar ao Topo Ir em baixo
Ver perfil do usuário
André
world war III
world war III


Masculino Número de Mensagens : 33
Idade : 20
Localização : Lisboa
Emprego/lazer : estudante
Jonas Brothers Preferido : nenhum em especial, acho algumas musicas fixes...
Data de inscrição : 06/11/2009

MensagemAssunto: Re: as tabs dos jonas, para quem quiser aprender a tocar as suas musicas   Dom Nov 08, 2009 8:02 pm

ritasantos escreveu:
mas eu heide consegir ahah. obrigado Very Happy
continua a por tabs, ou entao mesmo chords, ha pessoas qe se entendem melhor Very Happy
ya
e o que vou fazer, entretanto eu sei de um site que tem todas a tabs que quiseres ao sei se conheces
Voltar ao Topo Ir em baixo
Ver perfil do usuário
ritasantos
Jornalista
Jornalista


Feminino Número de Mensagens : 5905
Idade : 23
Localização : oasis
Emprego/lazer : profissional a descansar
Jonas Brothers Preferido : têm todos algo
Data de inscrição : 24/03/2009

MensagemAssunto: Re: as tabs dos jonas, para quem quiser aprender a tocar as suas musicas   Dom Nov 08, 2009 8:07 pm

ultimate guitar ?
Voltar ao Topo Ir em baixo
Ver perfil do usuário
André
world war III
world war III


Masculino Número de Mensagens : 33
Idade : 20
Localização : Lisboa
Emprego/lazer : estudante
Jonas Brothers Preferido : nenhum em especial, acho algumas musicas fixes...
Data de inscrição : 06/11/2009

MensagemAssunto: Re: as tabs dos jonas, para quem quiser aprender a tocar as suas musicas   Dom Nov 08, 2009 8:08 pm

ritasantos escreveu:
ultimate guitar ?

ya esse msmo xD
Voltar ao Topo Ir em baixo
Ver perfil do usuário
ritasantos
Jornalista
Jornalista


Feminino Número de Mensagens : 5905
Idade : 23
Localização : oasis
Emprego/lazer : profissional a descansar
Jonas Brothers Preferido : têm todos algo
Data de inscrição : 24/03/2009

MensagemAssunto: Re: as tabs dos jonas, para quem quiser aprender a tocar as suas musicas   Dom Nov 08, 2009 8:08 pm

ahah, toda a gente conhece :b
Voltar ao Topo Ir em baixo
Ver perfil do usuário
André
world war III
world war III


Masculino Número de Mensagens : 33
Idade : 20
Localização : Lisboa
Emprego/lazer : estudante
Jonas Brothers Preferido : nenhum em especial, acho algumas musicas fixes...
Data de inscrição : 06/11/2009

MensagemAssunto: Re: as tabs dos jonas, para quem quiser aprender a tocar as suas musicas   Dom Nov 08, 2009 8:09 pm

ritasantos escreveu:
ahah, toda a gente conhece :b

ya looool
Voltar ao Topo Ir em baixo
Ver perfil do usuário
Coca Jonas
hey baby
hey baby


Feminino Número de Mensagens : 457
Idade : 23
Localização : lisboa
Emprego/lazer : Olhar, respirar, babar pelos jonas brothers
Jonas Brothers Preferido : JOSEPH ADAM JONAS , perfeito .
Data de inscrição : 23/12/2008

MensagemAssunto: Re: as tabs dos jonas, para quem quiser aprender a tocar as suas musicas   Qua Nov 18, 2009 11:43 pm

Meu video a ensinar a intro do goodnight and goodbye..

http://www.youtube.com/watch?v=pItcmHQm1Bs
Voltar ao Topo Ir em baixo
Ver perfil do usuário
ritasantos
Jornalista
Jornalista


Feminino Número de Mensagens : 5905
Idade : 23
Localização : oasis
Emprego/lazer : profissional a descansar
Jonas Brothers Preferido : têm todos algo
Data de inscrição : 24/03/2009

MensagemAssunto: Re: as tabs dos jonas, para quem quiser aprender a tocar as suas musicas   Qua Nov 18, 2009 11:45 pm

explica o ritmo e tudo, é mesmo essa a dificuldade !
obrigado (L)
Voltar ao Topo Ir em baixo
Ver perfil do usuário
André
world war III
world war III


Masculino Número de Mensagens : 33
Idade : 20
Localização : Lisboa
Emprego/lazer : estudante
Jonas Brothers Preferido : nenhum em especial, acho algumas musicas fixes...
Data de inscrição : 06/11/2009

MensagemAssunto: Re: as tabs dos jonas, para quem quiser aprender a tocar as suas musicas   Qua Nov 18, 2009 11:47 pm

ritasantos escreveu:
explica o ritmo e tudo, é mesmo essa a dificuldade !
obrigado (L)

por aqui é um bocado explicar mas vou tentar:

presta ateçao a guitarra e tenta criar um movimento de palhetas em que consigas fazer o mesmo tempo xD
Voltar ao Topo Ir em baixo
Ver perfil do usuário
Coca Jonas
hey baby
hey baby


Feminino Número de Mensagens : 457
Idade : 23
Localização : lisboa
Emprego/lazer : Olhar, respirar, babar pelos jonas brothers
Jonas Brothers Preferido : JOSEPH ADAM JONAS , perfeito .
Data de inscrição : 23/12/2008

MensagemAssunto: Re: as tabs dos jonas, para quem quiser aprender a tocar as suas musicas   Qua Nov 18, 2009 11:54 pm

alguem vio o link que mandei do youtube e usou?

http://www.youtube.com/watch?v=pItcmHQm1Bs
Voltar ao Topo Ir em baixo
Ver perfil do usuário
André
world war III
world war III


Masculino Número de Mensagens : 33
Idade : 20
Localização : Lisboa
Emprego/lazer : estudante
Jonas Brothers Preferido : nenhum em especial, acho algumas musicas fixes...
Data de inscrição : 06/11/2009

MensagemAssunto: Re: as tabs dos jonas, para quem quiser aprender a tocar as suas musicas   Qua Nov 18, 2009 11:56 pm

Coca Jonas escreveu:
alguem vio o link que mandei do youtube e usou?

http://www.youtube.com/watch?v=pItcmHQm1Bs

ah nao ainda nao tinha visto :S
Voltar ao Topo Ir em baixo
Ver perfil do usuário
Coca Jonas
hey baby
hey baby


Feminino Número de Mensagens : 457
Idade : 23
Localização : lisboa
Emprego/lazer : Olhar, respirar, babar pelos jonas brothers
Jonas Brothers Preferido : JOSEPH ADAM JONAS , perfeito .
Data de inscrição : 23/12/2008

MensagemAssunto: Re: as tabs dos jonas, para quem quiser aprender a tocar as suas musicas   Qua Nov 18, 2009 11:59 pm

ok depois digam alguma coisa... fiz o video em março a bue........
Voltar ao Topo Ir em baixo
Ver perfil do usuário
André
world war III
world war III


Masculino Número de Mensagens : 33
Idade : 20
Localização : Lisboa
Emprego/lazer : estudante
Jonas Brothers Preferido : nenhum em especial, acho algumas musicas fixes...
Data de inscrição : 06/11/2009

MensagemAssunto: Re: as tabs dos jonas, para quem quiser aprender a tocar as suas musicas   Qui Nov 19, 2009 12:03 am

Coca Jonas escreveu:
ok depois digam alguma coisa... fiz o video em março a bue........

mt fixe
Voltar ao Topo Ir em baixo
Ver perfil do usuário
Coca Jonas
hey baby
hey baby


Feminino Número de Mensagens : 457
Idade : 23
Localização : lisboa
Emprego/lazer : Olhar, respirar, babar pelos jonas brothers
Jonas Brothers Preferido : JOSEPH ADAM JONAS , perfeito .
Data de inscrição : 23/12/2008

MensagemAssunto: Re: as tabs dos jonas, para quem quiser aprender a tocar as suas musicas   Qui Nov 19, 2009 12:09 am

Tb ttenho video do Burnin up se alguem precisar just say
Voltar ao Topo Ir em baixo
Ver perfil do usuário
JoanaRocha
LA baby
LA baby


Feminino Número de Mensagens : 2262
Idade : 22
Localização : Guimarães
Emprego/lazer : Estudante
Jonas Brothers Preferido : Joseph, my prince charming <3
Data de inscrição : 15/06/2009

MensagemAssunto: Re: as tabs dos jonas, para quem quiser aprender a tocar as suas musicas   Qui Nov 19, 2009 12:30 am

No Natal, o meu mano vai'me dar uma viola ... e a namorada dele vai'me ensinar a tocar e ja disse que as primeiras vao ser dos JONAS !

- Ela e tao qrida
Voltar ao Topo Ir em baixo
Ver perfil do usuário http://sonhosemwonderland.blogspot.com/
ritasantos
Jornalista
Jornalista


Feminino Número de Mensagens : 5905
Idade : 23
Localização : oasis
Emprego/lazer : profissional a descansar
Jonas Brothers Preferido : têm todos algo
Data de inscrição : 24/03/2009

MensagemAssunto: Re: as tabs dos jonas, para quem quiser aprender a tocar as suas musicas   Qui Nov 19, 2009 2:59 pm

podias por aqi a da burnin up *___________*
Voltar ao Topo Ir em baixo
Ver perfil do usuário
Conteúdo patrocinado




MensagemAssunto: Re: as tabs dos jonas, para quem quiser aprender a tocar as suas musicas   Hoje à(s) 1:44 pm

Voltar ao Topo Ir em baixo
 
as tabs dos jonas, para quem quiser aprender a tocar as suas musicas
Ver o tópico anterior Ver o tópico seguinte Voltar ao Topo 
Página 1 de 1
 Tópicos similares
-
» Para quem quer aprender a tocar em 11/4
» Pra Quem Quer Aprender a Tocar em 5/4
» Pra Quem Quer Aprender a Tocar em 7/4
» Dicas para estudo ?
» para quem tem medo de ficar sem bateria

Permissão deste fórum:Você não pode responder aos tópicos neste fórum
Jonas Brothers Oficial Street Team Portuguesa :: Multimédia :: Músicas & Letras de Músicas-
Ir para: